ISO-10303-21;
HEADER;
/* Generated by software containing ST-Developer
 * from STEP Tools, Inc. (www.steptools.com) 
 */

FILE_DESCRIPTION(
/* description */ (''),
/* implementation_level */ '2;1');

FILE_NAME(
/* name */ 
'C:/Users/u0090669/Thomas More/Mobilab & Care - Assist3D - Documenten/
WP3 Implementatie casestudies/Wave 3/sint gerardus/connector eet appar
aat/connector eetrobot v1.step',
/* time_stamp */ '2020-09-28T11:27:15+02:00',
/* author */ (''),
/* organization */ (''),
/* preprocessor_version */ 'ST-DEVELOPER v18.1',
/* originating_system */ 'Autodesk Translation Framework v9.3.0.1241',
/* authorisation */ '');

FILE_SCHEMA (('AUTOMOTIVE_DESIGN { 1 0 10303 214 3 1 1 }'));
ENDSEC;

DATA;
#10=MECHANICAL_DESIGN_GEOMETRIC_PRESENTATION_REPRESENTATION('',(#13),#337);
#11=SHAPE_REPRESENTATION_RELATIONSHIP('SRR','None',#344,#12);
#12=ADVANCED_BREP_SHAPE_REPRESENTATION('',(#14),#336);
#13=STYLED_ITEM('',(#353),#14);
#14=MANIFOLD_SOLID_BREP('Body1',#179);
#15=CONICAL_SURFACE('',#210,20.2,0.785398163397449);
#16=CONICAL_SURFACE('',#212,4.75,0.785398163397448);
#17=CONICAL_SURFACE('',#216,11.5,0.588002603547567);
#18=LINE('',#299,#24);
#19=LINE('',#312,#25);
#20=LINE('',#316,#26);
#21=LINE('',#321,#27);
#22=LINE('',#327,#28);
#23=LINE('',#331,#29);
#24=VECTOR('',#239,25.2);
#25=VECTOR('',#256,4.25);
#26=VECTOR('',#261,20.2);
#27=VECTOR('',#268,4.75);
#28=VECTOR('',#275,11.5);
#29=VECTOR('',#280,12.5);
#30=CYLINDRICAL_SURFACE('',#200,25.2);
#31=CYLINDRICAL_SURFACE('',#207,4.25);
#32=CYLINDRICAL_SURFACE('',#218,12.5);
#33=FACE_BOUND('',#55,.T.);
#34=FACE_BOUND('',#60,.T.);
#35=FACE_BOUND('',#64,.T.);
#36=FACE_BOUND('',#68,.T.);
#37=PLANE('',#198);
#38=PLANE('',#209);
#39=PLANE('',#214);
#40=PLANE('',#220);
#41=FACE_OUTER_BOUND('',#53,.T.);
#42=FACE_OUTER_BOUND('',#54,.T.);
#43=FACE_OUTER_BOUND('',#56,.T.);
#44=FACE_OUTER_BOUND('',#57,.T.);
#45=FACE_OUTER_BOUND('',#58,.T.);
#46=FACE_OUTER_BOUND('',#59,.T.);
#47=FACE_OUTER_BOUND('',#61,.T.);
#48=FACE_OUTER_BOUND('',#62,.T.);
#49=FACE_OUTER_BOUND('',#63,.T.);
#50=FACE_OUTER_BOUND('',#65,.T.);
#51=FACE_OUTER_BOUND('',#66,.T.);
#52=FACE_OUTER_BOUND('',#67,.T.);
#53=EDGE_LOOP('',(#121,#122,#123,#124,#125));
#54=EDGE_LOOP('',(#126));
#55=EDGE_LOOP('',(#127));
#56=EDGE_LOOP('',(#128,#129,#130,#131,#132));
#57=EDGE_LOOP('',(#133,#134,#135,#136,#137));
#58=EDGE_LOOP('',(#138,#139,#140,#141,#142));
#59=EDGE_LOOP('',(#143));
#60=EDGE_LOOP('',(#144));
#61=EDGE_LOOP('',(#145,#146,#147,#148));
#62=EDGE_LOOP('',(#149,#150,#151,#152));
#63=EDGE_LOOP('',(#153));
#64=EDGE_LOOP('',(#154));
#65=EDGE_LOOP('',(#155,#156,#157,#158));
#66=EDGE_LOOP('',(#159,#160,#161,#162));
#67=EDGE_LOOP('',(#163));
#68=EDGE_LOOP('',(#164));
#69=CIRCLE('',#194,24.7);
#70=CIRCLE('',#195,0.5);
#71=CIRCLE('',#196,25.2);
#72=CIRCLE('',#197,25.2);
#73=CIRCLE('',#199,20.7);
#74=CIRCLE('',#201,25.2);
#75=CIRCLE('',#203,4.75);
#76=CIRCLE('',#204,0.5);
#77=CIRCLE('',#205,4.25);
#78=CIRCLE('',#206,4.25);
#79=CIRCLE('',#208,4.25);
#80=CIRCLE('',#211,19.7);
#81=CIRCLE('',#213,5.25);
#82=CIRCLE('',#215,10.5);
#83=CIRCLE('',#217,12.5);
#84=CIRCLE('',#219,12.5);
#85=VERTEX_POINT('',#287);
#86=VERTEX_POINT('',#289);
#87=VERTEX_POINT('',#291);
#88=VERTEX_POINT('',#295);
#89=VERTEX_POINT('',#298);
#90=VERTEX_POINT('',#302);
#91=VERTEX_POINT('',#304);
#92=VERTEX_POINT('',#306);
#93=VERTEX_POINT('',#310);
#94=VERTEX_POINT('',#315);
#95=VERTEX_POINT('',#319);
#96=VERTEX_POINT('',#323);
#97=VERTEX_POINT('',#326);
#98=VERTEX_POINT('',#330);
#99=EDGE_CURVE('',#85,#85,#69,.T.);
#100=EDGE_CURVE('',#85,#86,#70,.T.);
#101=EDGE_CURVE('',#86,#87,#71,.T.);
#102=EDGE_CURVE('',#87,#86,#72,.T.);
#103=EDGE_CURVE('',#88,#88,#73,.T.);
#104=EDGE_CURVE('',#87,#89,#18,.T.);
#105=EDGE_CURVE('',#89,#89,#74,.T.);
#106=EDGE_CURVE('',#90,#90,#75,.T.);
#107=EDGE_CURVE('',#90,#91,#76,.T.);
#108=EDGE_CURVE('',#91,#92,#77,.T.);
#109=EDGE_CURVE('',#92,#91,#78,.T.);
#110=EDGE_CURVE('',#93,#93,#79,.T.);
#111=EDGE_CURVE('',#93,#92,#19,.T.);
#112=EDGE_CURVE('',#88,#94,#20,.T.);
#113=EDGE_CURVE('',#94,#94,#80,.T.);
#114=EDGE_CURVE('',#95,#95,#81,.T.);
#115=EDGE_CURVE('',#95,#93,#21,.T.);
#116=EDGE_CURVE('',#96,#96,#82,.T.);
#117=EDGE_CURVE('',#96,#97,#22,.T.);
#118=EDGE_CURVE('',#97,#97,#83,.T.);
#119=EDGE_CURVE('',#97,#98,#23,.T.);
#120=EDGE_CURVE('',#98,#98,#84,.T.);
#121=ORIENTED_EDGE('',*,*,#99,.T.);
#122=ORIENTED_EDGE('',*,*,#100,.T.);
#123=ORIENTED_EDGE('',*,*,#101,.T.);
#124=ORIENTED_EDGE('',*,*,#102,.T.);
#125=ORIENTED_EDGE('',*,*,#100,.F.);
#126=ORIENTED_EDGE('',*,*,#99,.F.);
#127=ORIENTED_EDGE('',*,*,#103,.F.);
#128=ORIENTED_EDGE('',*,*,#102,.F.);
#129=ORIENTED_EDGE('',*,*,#104,.T.);
#130=ORIENTED_EDGE('',*,*,#105,.T.);
#131=ORIENTED_EDGE('',*,*,#104,.F.);
#132=ORIENTED_EDGE('',*,*,#101,.F.);
#133=ORIENTED_EDGE('',*,*,#106,.T.);
#134=ORIENTED_EDGE('',*,*,#107,.T.);
#135=ORIENTED_EDGE('',*,*,#108,.T.);
#136=ORIENTED_EDGE('',*,*,#109,.T.);
#137=ORIENTED_EDGE('',*,*,#107,.F.);
#138=ORIENTED_EDGE('',*,*,#110,.F.);
#139=ORIENTED_EDGE('',*,*,#111,.T.);
#140=ORIENTED_EDGE('',*,*,#108,.F.);
#141=ORIENTED_EDGE('',*,*,#109,.F.);
#142=ORIENTED_EDGE('',*,*,#111,.F.);
#143=ORIENTED_EDGE('',*,*,#105,.F.);
#144=ORIENTED_EDGE('',*,*,#106,.F.);
#145=ORIENTED_EDGE('',*,*,#103,.T.);
#146=ORIENTED_EDGE('',*,*,#112,.T.);
#147=ORIENTED_EDGE('',*,*,#113,.T.);
#148=ORIENTED_EDGE('',*,*,#112,.F.);
#149=ORIENTED_EDGE('',*,*,#114,.T.);
#150=ORIENTED_EDGE('',*,*,#115,.T.);
#151=ORIENTED_EDGE('',*,*,#110,.T.);
#152=ORIENTED_EDGE('',*,*,#115,.F.);
#153=ORIENTED_EDGE('',*,*,#116,.F.);
#154=ORIENTED_EDGE('',*,*,#114,.F.);
#155=ORIENTED_EDGE('',*,*,#116,.T.);
#156=ORIENTED_EDGE('',*,*,#117,.T.);
#157=ORIENTED_EDGE('',*,*,#118,.T.);
#158=ORIENTED_EDGE('',*,*,#117,.F.);
#159=ORIENTED_EDGE('',*,*,#118,.F.);
#160=ORIENTED_EDGE('',*,*,#119,.T.);
#161=ORIENTED_EDGE('',*,*,#120,.T.);
#162=ORIENTED_EDGE('',*,*,#119,.F.);
#163=ORIENTED_EDGE('',*,*,#113,.F.);
#164=ORIENTED_EDGE('',*,*,#120,.F.);
#165=TOROIDAL_SURFACE('',#193,24.7,0.5);
#166=TOROIDAL_SURFACE('',#202,4.75,0.5);
#167=ADVANCED_FACE('',(#41),#165,.T.);
#168=ADVANCED_FACE('',(#42,#33),#37,.T.);
#169=ADVANCED_FACE('',(#43),#30,.T.);
#170=ADVANCED_FACE('',(#44),#166,.T.);
#171=ADVANCED_FACE('',(#45),#31,.F.);
#172=ADVANCED_FACE('',(#46,#34),#38,.F.);
#173=ADVANCED_FACE('',(#47),#15,.F.);
#174=ADVANCED_FACE('',(#48),#16,.F.);
#175=ADVANCED_FACE('',(#49,#35),#39,.T.);
#176=ADVANCED_FACE('',(#50),#17,.T.);
#177=ADVANCED_FACE('',(#51),#32,.T.);
#178=ADVANCED_FACE('',(#52,#36),#40,.T.);
#179=CLOSED_SHELL('',(#167,#168,#169,#170,#171,#172,#173,#174,#175,#176,
#177,#178));
#180=DERIVED_UNIT_ELEMENT(#182,1.);
#181=DERIVED_UNIT_ELEMENT(#339,3.);
#182=(
MASS_UNIT()
NAMED_UNIT(*)
SI_UNIT(.KILO.,.GRAM.)
);
#183=DERIVED_UNIT((#180,#181));
#184=MEASURE_REPRESENTATION_ITEM('density measure',
POSITIVE_RATIO_MEASURE(7850.),#183);
#185=PROPERTY_DEFINITION_REPRESENTATION(#190,#187);
#186=PROPERTY_DEFINITION_REPRESENTATION(#191,#188);
#187=REPRESENTATION('material name',(#189),#336);
#188=REPRESENTATION('density',(#184),#336);
#189=DESCRIPTIVE_REPRESENTATION_ITEM('Steel','Steel');
#190=PROPERTY_DEFINITION('material property','material name',#346);
#191=PROPERTY_DEFINITION('material property','density of part',#346);
#192=AXIS2_PLACEMENT_3D('placement',#285,#221,#222);
#193=AXIS2_PLACEMENT_3D('',#286,#223,#224);
#194=AXIS2_PLACEMENT_3D('',#288,#225,#226);
#195=AXIS2_PLACEMENT_3D('',#290,#227,#228);
#196=AXIS2_PLACEMENT_3D('',#292,#229,#230);
#197=AXIS2_PLACEMENT_3D('',#293,#231,#232);
#198=AXIS2_PLACEMENT_3D('',#294,#233,#234);
#199=AXIS2_PLACEMENT_3D('',#296,#235,#236);
#200=AXIS2_PLACEMENT_3D('',#297,#237,#238);
#201=AXIS2_PLACEMENT_3D('',#300,#240,#241);
#202=AXIS2_PLACEMENT_3D('',#301,#242,#243);
#203=AXIS2_PLACEMENT_3D('',#303,#244,#245);
#204=AXIS2_PLACEMENT_3D('',#305,#246,#247);
#205=AXIS2_PLACEMENT_3D('',#307,#248,#249);
#206=AXIS2_PLACEMENT_3D('',#308,#250,#251);
#207=AXIS2_PLACEMENT_3D('',#309,#252,#253);
#208=AXIS2_PLACEMENT_3D('',#311,#254,#255);
#209=AXIS2_PLACEMENT_3D('',#313,#257,#258);
#210=AXIS2_PLACEMENT_3D('',#314,#259,#260);
#211=AXIS2_PLACEMENT_3D('',#317,#262,#263);
#212=AXIS2_PLACEMENT_3D('',#318,#264,#265);
#213=AXIS2_PLACEMENT_3D('',#320,#266,#267);
#214=AXIS2_PLACEMENT_3D('',#322,#269,#270);
#215=AXIS2_PLACEMENT_3D('',#324,#271,#272);
#216=AXIS2_PLACEMENT_3D('',#325,#273,#274);
#217=AXIS2_PLACEMENT_3D('',#328,#276,#277);
#218=AXIS2_PLACEMENT_3D('',#329,#278,#279);
#219=AXIS2_PLACEMENT_3D('',#332,#281,#282);
#220=AXIS2_PLACEMENT_3D('',#333,#283,#284);
#221=DIRECTION('axis',(0.,0.,1.));
#222=DIRECTION('refdir',(1.,0.,0.));
#223=DIRECTION('center_axis',(0.,1.,0.));
#224=DIRECTION('ref_axis',(0.,0.,1.));
#225=DIRECTION('center_axis',(0.,-1.,0.));
#226=DIRECTION('ref_axis',(1.,0.,0.));
#227=DIRECTION('center_axis',(-1.,0.,1.22464679914735E-16));
#228=DIRECTION('ref_axis',(-1.22464679914735E-16,0.,-1.));
#229=DIRECTION('center_axis',(0.,1.,0.));
#230=DIRECTION('ref_axis',(1.,0.,0.));
#231=DIRECTION('center_axis',(0.,1.,0.));
#232=DIRECTION('ref_axis',(1.,0.,0.));
#233=DIRECTION('center_axis',(0.,1.,0.));
#234=DIRECTION('ref_axis',(1.,0.,0.));
#235=DIRECTION('center_axis',(0.,1.,0.));
#236=DIRECTION('ref_axis',(-1.,0.,0.));
#237=DIRECTION('center_axis',(0.,1.,0.));
#238=DIRECTION('ref_axis',(1.,0.,0.));
#239=DIRECTION('',(0.,-1.,0.));
#240=DIRECTION('center_axis',(0.,1.,0.));
#241=DIRECTION('ref_axis',(1.,0.,0.));
#242=DIRECTION('center_axis',(0.,1.,0.));
#243=DIRECTION('ref_axis',(0.,0.,1.));
#244=DIRECTION('center_axis',(0.,-1.,0.));
#245=DIRECTION('ref_axis',(-1.,0.,0.));
#246=DIRECTION('center_axis',(-1.,0.,1.22464679914735E-16));
#247=DIRECTION('ref_axis',(-1.22464679914735E-16,0.,-1.));
#248=DIRECTION('center_axis',(0.,1.,0.));
#249=DIRECTION('ref_axis',(-1.,0.,0.));
#250=DIRECTION('center_axis',(0.,1.,0.));
#251=DIRECTION('ref_axis',(-1.,0.,0.));
#252=DIRECTION('center_axis',(0.,-1.,0.));
#253=DIRECTION('ref_axis',(-1.,0.,0.));
#254=DIRECTION('center_axis',(0.,-1.,0.));
#255=DIRECTION('ref_axis',(-1.,0.,0.));
#256=DIRECTION('',(0.,-1.,0.));
#257=DIRECTION('center_axis',(0.,1.,0.));
#258=DIRECTION('ref_axis',(1.,0.,0.));
#259=DIRECTION('center_axis',(0.,1.,0.));
#260=DIRECTION('ref_axis',(-1.,0.,0.));
#261=DIRECTION('',(-0.707106781186548,-0.707106781186547,8.65956056235494E-17));
#262=DIRECTION('center_axis',(0.,-1.,0.));
#263=DIRECTION('ref_axis',(-1.,0.,0.));
#264=DIRECTION('center_axis',(0.,1.,0.));
#265=DIRECTION('ref_axis',(-1.,0.,0.));
#266=DIRECTION('center_axis',(0.,1.,0.));
#267=DIRECTION('ref_axis',(-1.,0.,0.));
#268=DIRECTION('',(-0.707106781186547,-0.707106781186548,8.65956056235493E-17));
#269=DIRECTION('center_axis',(0.,1.,0.));
#270=DIRECTION('ref_axis',(-1.,0.,0.));
#271=DIRECTION('center_axis',(0.,-1.,0.));
#272=DIRECTION('ref_axis',(-1.,0.,0.));
#273=DIRECTION('center_axis',(0.,-1.,0.));
#274=DIRECTION('ref_axis',(-1.,0.,0.));
#275=DIRECTION('',(0.554700196225229,-0.832050294337844,-6.79311819793635E-17));
#276=DIRECTION('center_axis',(0.,1.,0.));
#277=DIRECTION('ref_axis',(-1.,0.,0.));
#278=DIRECTION('center_axis',(0.,1.,0.));
#279=DIRECTION('ref_axis',(-1.,0.,0.));
#280=DIRECTION('',(0.,-1.,0.));
#281=DIRECTION('center_axis',(0.,1.,0.));
#282=DIRECTION('ref_axis',(-1.,0.,0.));
#283=DIRECTION('center_axis',(0.,1.,0.));
#284=DIRECTION('ref_axis',(-1.,0.,0.));
#285=CARTESIAN_POINT('',(0.,0.,0.));
#286=CARTESIAN_POINT('Origin',(0.,4.,0.));
#287=CARTESIAN_POINT('',(-3.02487759389396E-15,4.5,-24.7));
#288=CARTESIAN_POINT('Origin',(0.,4.5,0.));
#289=CARTESIAN_POINT('',(-3.08610993385133E-15,4.,-25.2));
#290=CARTESIAN_POINT('Origin',(-3.02487759389396E-15,4.,-24.7));
#291=CARTESIAN_POINT('',(-25.2,4.,3.08610993385133E-15));
#292=CARTESIAN_POINT('Origin',(0.,4.,0.));
#293=CARTESIAN_POINT('Origin',(0.,4.,0.));
#294=CARTESIAN_POINT('Origin',(0.,4.5,0.));
#295=CARTESIAN_POINT('',(20.7,4.5,-2.53501887423502E-15));
#296=CARTESIAN_POINT('Origin',(0.,4.5,0.));
#297=CARTESIAN_POINT('Origin',(0.,0.,0.));
#298=CARTESIAN_POINT('',(-25.2,0.,3.08610993385133E-15));
#299=CARTESIAN_POINT('',(-25.2,0.,3.08610993385133E-15));
#300=CARTESIAN_POINT('Origin',(0.,0.,0.));
#301=CARTESIAN_POINT('Origin',(0.,0.499999999999998,0.));
#302=CARTESIAN_POINT('',(-5.81707229594993E-16,0.,-4.75));
#303=CARTESIAN_POINT('Origin',(0.,0.,0.));
#304=CARTESIAN_POINT('',(-5.20474889637625E-16,0.499999999999998,-4.25));
#305=CARTESIAN_POINT('Origin',(-5.81707229594993E-16,0.499999999999998,
-4.75));
#306=CARTESIAN_POINT('',(4.25,0.499999999999998,-5.20474889637625E-16));
#307=CARTESIAN_POINT('Origin',(0.,0.499999999999998,0.));
#308=CARTESIAN_POINT('Origin',(0.,0.499999999999998,0.));
#309=CARTESIAN_POINT('Origin',(0.,27.5,0.));
#310=CARTESIAN_POINT('',(4.25,26.5,5.20474889637625E-16));
#311=CARTESIAN_POINT('Origin',(0.,26.5,0.));
#312=CARTESIAN_POINT('',(4.25,27.5,5.20474889637625E-16));
#313=CARTESIAN_POINT('Origin',(0.,0.,0.));
#314=CARTESIAN_POINT('Origin',(0.,4.,0.));
#315=CARTESIAN_POINT('',(19.7,3.5,-2.41255419432029E-15));
#316=CARTESIAN_POINT('',(20.2,4.,-2.47378653427765E-15));
#317=CARTESIAN_POINT('Origin',(0.,3.5,0.));
#318=CARTESIAN_POINT('Origin',(0.,27.,0.));
#319=CARTESIAN_POINT('',(5.25,27.5,-6.42939569552361E-16));
#320=CARTESIAN_POINT('Origin',(0.,27.5,0.));
#321=CARTESIAN_POINT('',(4.75,27.,-5.81707229594993E-16));
#322=CARTESIAN_POINT('Origin',(0.,27.5,0.));
#323=CARTESIAN_POINT('',(10.5,27.5,1.28587913910472E-15));
#324=CARTESIAN_POINT('Origin',(0.,27.5,0.));
#325=CARTESIAN_POINT('Origin',(0.,26.,0.));
#326=CARTESIAN_POINT('',(12.5,24.5,-1.53080849893419E-15));
#327=CARTESIAN_POINT('',(11.5,26.,-1.40834381901946E-15));
#328=CARTESIAN_POINT('Origin',(0.,24.5,0.));
#329=CARTESIAN_POINT('Origin',(0.,4.5,0.));
#330=CARTESIAN_POINT('',(12.5,3.5,-1.53080849893419E-15));
#331=CARTESIAN_POINT('',(12.5,4.5,-1.53080849893419E-15));
#332=CARTESIAN_POINT('Origin',(0.,3.5,0.));
#333=CARTESIAN_POINT('Origin',(0.,3.5,0.));
#334=UNCERTAINTY_MEASURE_WITH_UNIT(LENGTH_MEASURE(0.01),#338,
'DISTANCE_ACCURACY_VALUE',
'Maximum model space distance between geometric entities at asserted c
onnectivities');
#335=UNCERTAINTY_MEASURE_WITH_UNIT(LENGTH_MEASURE(0.01),#338,
'DISTANCE_ACCURACY_VALUE',
'Maximum model space distance between geometric entities at asserted c
onnectivities');
#336=(
GEOMETRIC_REPRESENTATION_CONTEXT(3)
GLOBAL_UNCERTAINTY_ASSIGNED_CONTEXT((#334))
GLOBAL_UNIT_ASSIGNED_CONTEXT((#338,#340,#341))
REPRESENTATION_CONTEXT('','3D')
);
#337=(
GEOMETRIC_REPRESENTATION_CONTEXT(3)
GLOBAL_UNCERTAINTY_ASSIGNED_CONTEXT((#335))
GLOBAL_UNIT_ASSIGNED_CONTEXT((#338,#340,#341))
REPRESENTATION_CONTEXT('','3D')
);
#338=(
LENGTH_UNIT()
NAMED_UNIT(*)
SI_UNIT(.MILLI.,.METRE.)
);
#339=(
LENGTH_UNIT()
NAMED_UNIT(*)
SI_UNIT($,.METRE.)
);
#340=(
NAMED_UNIT(*)
PLANE_ANGLE_UNIT()
SI_UNIT($,.RADIAN.)
);
#341=(
NAMED_UNIT(*)
SI_UNIT($,.STERADIAN.)
SOLID_ANGLE_UNIT()
);
#342=SHAPE_DEFINITION_REPRESENTATION(#343,#344);
#343=PRODUCT_DEFINITION_SHAPE('',$,#346);
#344=SHAPE_REPRESENTATION('',(#192),#336);
#345=PRODUCT_DEFINITION_CONTEXT('part definition',#350,'design');
#346=PRODUCT_DEFINITION('connector eetrobot','connector eetrobot v1',#347,
#345);
#347=PRODUCT_DEFINITION_FORMATION('',$,#352);
#348=PRODUCT_RELATED_PRODUCT_CATEGORY('connector eetrobot v1',
'connector eetrobot v1',(#352));
#349=APPLICATION_PROTOCOL_DEFINITION('international standard',
'automotive_design',2009,#350);
#350=APPLICATION_CONTEXT(
'Core Data for Automotive Mechanical Design Process');
#351=PRODUCT_CONTEXT('part definition',#350,'mechanical');
#352=PRODUCT('connector eetrobot','connector eetrobot v1',$,(#351));
#353=PRESENTATION_STYLE_ASSIGNMENT((#354));
#354=SURFACE_STYLE_USAGE(.BOTH.,#355);
#355=SURFACE_SIDE_STYLE('',(#356));
#356=SURFACE_STYLE_FILL_AREA(#357);
#357=FILL_AREA_STYLE('Steel - Satin',(#358));
#358=FILL_AREA_STYLE_COLOUR('Steel - Satin',#359);
#359=COLOUR_RGB('Steel - Satin',0.627450980392157,0.627450980392157,0.627450980392157);
ENDSEC;
END-ISO-10303-21;
